ISO-10303-21;
HEADER;
/* Generated by software containing ST-Developer
 * from STEP Tools, Inc. (www.steptools.com) 
 */

FILE_DESCRIPTION(
/* description */ (''),
/* implementation_level */ '2;1');

FILE_NAME(
/* name */ 'C:/Users/antonins/Desktop/4CTDB 030 040 141.step',
/* time_stamp */ '2021-06-02T12:57:50+02:00',
/* author */ (''),
/* organization */ (''),
/* preprocessor_version */ 'ST-DEVELOPER v18.1',
/* originating_system */ 'Autodesk Translation Framework v10.9.0.1377',

/* authorisation */ '');

FILE_SCHEMA (('AUTOMOTIVE_DESIGN { 1 0 10303 214 3 1 1 }'));
ENDSEC;

DATA;
#10=MECHANICAL_DESIGN_GEOMETRIC_PRESENTATION_REPRESENTATION('',(#13),#246);
#11=SHAPE_REPRESENTATION_RELATIONSHIP('SRR','None',#253,#12);
#12=ADVANCED_BREP_SHAPE_REPRESENTATION('',(#14),#245);
#13=STYLED_ITEM('',(#262),#14);
#14=MANIFOLD_SOLID_BREP('Body1',#115);
#15=PLANE('',#145);
#16=SPHERICAL_SURFACE('',#144,1.49999700000081);
#17=(
BOUNDED_SURFACE()
B_SPLINE_SURFACE(2,2,((#211,#212,#213,#214,#215,#216,#217,#218,#219),(#220,
#221,#222,#223,#224,#225,#226,#227,#228),(#229,#230,#231,#232,#233,#234,
#235,#236,#237)),.UNSPECIFIED.,.F.,.T.,.F.)
B_SPLINE_SURFACE_WITH_KNOTS((3,3),(3,2,2,2,3),(0.00932532450707386,0.343301651961949),
(-3.14159265358979,-1.5707963267949,0.,1.5707963267949,3.14159265358979),
 .UNSPECIFIED.)
GEOMETRIC_REPRESENTATION_ITEM()
RATIONAL_B_SPLINE_SURFACE(((1.,0.707106781186548,1.,0.707106781186548,1.,
0.707106781186548,1.,0.707106781186548,1.),(0.98608984548073,0.697270816598619,
0.98608984548073,0.697270816598619,0.98608984548073,0.697270816598619,0.98608984548073,
0.697270816598619,0.98608984548073),(1.,0.707106781186548,1.,0.707106781186548,
1.,0.707106781186548,1.,0.707106781186548,1.)))
REPRESENTATION_ITEM('')
SURFACE()
);
#18=TOROIDAL_SURFACE('',#139,2.24485538503358,1.49999700000383);
#19=CYLINDRICAL_SURFACE('',#132,3.99999199999911);
#20=CYLINDRICAL_SURFACE('',#136,3.64999270000225);
#21=FACE_OUTER_BOUND('',#29,.T.);
#22=FACE_OUTER_BOUND('',#30,.T.);
#23=FACE_OUTER_BOUND('',#31,.T.);
#24=FACE_OUTER_BOUND('',#32,.T.);
#25=FACE_OUTER_BOUND('',#33,.T.);
#26=FACE_OUTER_BOUND('',#34,.T.);
#27=FACE_OUTER_BOUND('',#35,.T.);
#28=FACE_OUTER_BOUND('',#36,.T.);
#29=EDGE_LOOP('',(#77,#78,#79,#80));
#30=EDGE_LOOP('',(#81,#82,#83,#84));
#31=EDGE_LOOP('',(#85,#86,#87,#88));
#32=EDGE_LOOP('',(#89,#90,#91,#92,#93));
#33=EDGE_LOOP('',(#94,#95,#96,#97,#98));
#34=EDGE_LOOP('',(#99,#100,#101,#102));
#35=EDGE_LOOP('',(#103));
#36=EDGE_LOOP('',(#104));
#37=LINE('',#191,#41);
#38=LINE('',#196,#42);
#39=LINE('',#200,#43);
#40=LINE('',#205,#44);
#41=VECTOR('',#152,3.84999229999949);
#42=VECTOR('',#159,3.99999199999911);
#43=VECTOR('',#164,3.82499235000068);
#44=VECTOR('',#169,3.64999270000225);
#45=CIRCLE('',#130,3.99999199999912);
#46=CIRCLE('',#131,3.69999259999987);
#47=CIRCLE('',#133,3.99999199999911);
#48=CIRCLE('',#135,3.64999270000225);
#49=CIRCLE('',#137,3.64999270000225);
#50=CIRCLE('',#138,3.64999270000225);
#51=CIRCLE('',#140,3.74478716438261);
#52=CIRCLE('',#141,1.49999700000383);
#53=CIRCLE('',#142,1.41246988122474);
#54=CIRCLE('',#143,39.9999199999987);
#55=VERTEX_POINT('',#188);
#56=VERTEX_POINT('',#190);
#57=VERTEX_POINT('',#194);
#58=VERTEX_POINT('',#198);
#59=VERTEX_POINT('',#202);
#60=VERTEX_POINT('',#203);
#61=VERTEX_POINT('',#208);
#62=VERTEX_POINT('',#238);
#63=EDGE_CURVE('',#55,#55,#45,.T.);
#64=EDGE_CURVE('',#55,#56,#37,.T.);
#65=EDGE_CURVE('',#56,#56,#46,.T.);
#66=EDGE_CURVE('',#57,#57,#47,.T.);
#67=EDGE_CURVE('',#57,#55,#38,.T.);
#68=EDGE_CURVE('',#58,#58,#48,.T.);
#69=EDGE_CURVE('',#58,#57,#39,.T.);
#70=EDGE_CURVE('',#59,#60,#49,.T.);
#71=EDGE_CURVE('',#59,#58,#40,.T.);
#72=EDGE_CURVE('',#60,#59,#50,.T.);
#73=EDGE_CURVE('',#61,#61,#51,.T.);
#74=EDGE_CURVE('',#61,#60,#52,.T.);
#75=EDGE_CURVE('',#62,#62,#53,.T.);
#76=EDGE_CURVE('',#62,#61,#54,.T.);
#77=ORIENTED_EDGE('',*,*,#63,.F.);
#78=ORIENTED_EDGE('',*,*,#64,.T.);
#79=ORIENTED_EDGE('',*,*,#65,.T.);
#80=ORIENTED_EDGE('',*,*,#64,.F.);
#81=ORIENTED_EDGE('',*,*,#66,.F.);
#82=ORIENTED_EDGE('',*,*,#67,.T.);
#83=ORIENTED_EDGE('',*,*,#63,.T.);
#84=ORIENTED_EDGE('',*,*,#67,.F.);
#85=ORIENTED_EDGE('',*,*,#68,.F.);
#86=ORIENTED_EDGE('',*,*,#69,.T.);
#87=ORIENTED_EDGE('',*,*,#66,.T.);
#88=ORIENTED_EDGE('',*,*,#69,.F.);
#89=ORIENTED_EDGE('',*,*,#70,.F.);
#90=ORIENTED_EDGE('',*,*,#71,.T.);
#91=ORIENTED_EDGE('',*,*,#68,.T.);
#92=ORIENTED_EDGE('',*,*,#71,.F.);
#93=ORIENTED_EDGE('',*,*,#72,.F.);
#94=ORIENTED_EDGE('',*,*,#73,.F.);
#95=ORIENTED_EDGE('',*,*,#74,.T.);
#96=ORIENTED_EDGE('',*,*,#72,.T.);
#97=ORIENTED_EDGE('',*,*,#70,.T.);
#98=ORIENTED_EDGE('',*,*,#74,.F.);
#99=ORIENTED_EDGE('',*,*,#75,.F.);
#100=ORIENTED_EDGE('',*,*,#76,.T.);
#101=ORIENTED_EDGE('',*,*,#73,.T.);
#102=ORIENTED_EDGE('',*,*,#76,.F.);
#103=ORIENTED_EDGE('',*,*,#75,.T.);
#104=ORIENTED_EDGE('',*,*,#65,.F.);
#105=CONICAL_SURFACE('',#129,3.84999229999949,0.785398163397448);
#106=CONICAL_SURFACE('',#134,3.82499235000068,0.523598775594584);
#107=ADVANCED_FACE('',(#21),#105,.T.);
#108=ADVANCED_FACE('',(#22),#19,.T.);
#109=ADVANCED_FACE('',(#23),#106,.T.);
#110=ADVANCED_FACE('',(#24),#20,.T.);
#111=ADVANCED_FACE('',(#25),#18,.T.);
#112=ADVANCED_FACE('',(#26),#17,.F.);
#113=ADVANCED_FACE('',(#27),#16,.T.);
#114=ADVANCED_FACE('',(#28),#15,.T.);
#115=CLOSED_SHELL('',(#107,#108,#109,#110,#111,#112,#113,#114));
#116=DERIVED_UNIT_ELEMENT(#118,1.);
#117=DERIVED_UNIT_ELEMENT(#248,-3.);
#118=(
MASS_UNIT()
NAMED_UNIT(*)
SI_UNIT(.KILO.,.GRAM.)
);
#119=DERIVED_UNIT((#116,#117));
#120=MEASURE_REPRESENTATION_ITEM('density measure',
POSITIVE_RATIO_MEASURE(7850.),#119);
#121=PROPERTY_DEFINITION_REPRESENTATION(#126,#123);
#122=PROPERTY_DEFINITION_REPRESENTATION(#127,#124);
#123=REPRESENTATION('material name',(#125),#245);
#124=REPRESENTATION('density',(#120),#245);
#125=DESCRIPTIVE_REPRESENTATION_ITEM('Steel','Steel');
#126=PROPERTY_DEFINITION('material property','material name',#255);
#127=PROPERTY_DEFINITION('material property','density of part',#255);
#128=AXIS2_PLACEMENT_3D('placement',#186,#146,#147);
#129=AXIS2_PLACEMENT_3D('',#187,#148,#149);
#130=AXIS2_PLACEMENT_3D('',#189,#150,#151);
#131=AXIS2_PLACEMENT_3D('',#192,#153,#154);
#132=AXIS2_PLACEMENT_3D('',#193,#155,#156);
#133=AXIS2_PLACEMENT_3D('',#195,#157,#158);
#134=AXIS2_PLACEMENT_3D('',#197,#160,#161);
#135=AXIS2_PLACEMENT_3D('',#199,#162,#163);
#136=AXIS2_PLACEMENT_3D('',#201,#165,#166);
#137=AXIS2_PLACEMENT_3D('',#204,#167,#168);
#138=AXIS2_PLACEMENT_3D('',#206,#170,#171);
#139=AXIS2_PLACEMENT_3D('',#207,#172,#173);
#140=AXIS2_PLACEMENT_3D('',#209,#174,#175);
#141=AXIS2_PLACEMENT_3D('',#210,#176,#177);
#142=AXIS2_PLACEMENT_3D('',#239,#178,#179);
#143=AXIS2_PLACEMENT_3D('',#240,#180,#181);
#144=AXIS2_PLACEMENT_3D('',#241,#182,#183);
#145=AXIS2_PLACEMENT_3D('',#242,#184,#185);
#146=DIRECTION('axis',(0.,0.,1.));
#147=DIRECTION('refdir',(1.,0.,0.));
#148=DIRECTION('center_axis',(0.,-1.,0.));
#149=DIRECTION('ref_axis',(1.,0.,0.));
#150=DIRECTION('center_axis',(0.,-1.,0.));
#151=DIRECTION('ref_axis',(1.,0.,0.));
#152=DIRECTION('',(0.707106781186547,0.707106781186547,8.65956056235493E-17));
#153=DIRECTION('center_axis',(0.,-1.,0.));
#154=DIRECTION('ref_axis',(1.,0.,0.));
#155=DIRECTION('center_axis',(0.,-1.,0.));
#156=DIRECTION('ref_axis',(1.,0.,0.));
#157=DIRECTION('center_axis',(0.,-1.,0.));
#158=DIRECTION('ref_axis',(1.,0.,0.));
#159=DIRECTION('',(0.,1.,0.));
#160=DIRECTION('center_axis',(0.,1.,0.));
#161=DIRECTION('ref_axis',(1.,0.,0.));
#162=DIRECTION('center_axis',(0.,-1.,0.));
#163=DIRECTION('ref_axis',(1.,0.,0.));
#164=DIRECTION('',(-0.499999999996783,0.866025403786296,-6.12323399569736E-17));
#165=DIRECTION('center_axis',(0.,-1.,0.));
#166=DIRECTION('ref_axis',(1.,0.,0.));
#167=DIRECTION('center_axis',(0.,-1.,0.));
#168=DIRECTION('ref_axis',(1.,0.,0.));
#169=DIRECTION('',(0.,1.,0.));
#170=DIRECTION('center_axis',(0.,-1.,0.));
#171=DIRECTION('ref_axis',(1.,0.,0.));
#172=DIRECTION('center_axis',(0.,-1.,0.));
#173=DIRECTION('ref_axis',(0.,0.,-1.));
#174=DIRECTION('center_axis',(0.,-1.,0.));
#175=DIRECTION('ref_axis',(1.,0.,0.));
#176=DIRECTION('center_axis',(-1.,0.,-1.22464679914735E-16));
#177=DIRECTION('ref_axis',(-1.22464679914735E-16,0.,1.));
#178=DIRECTION('center_axis',(0.,-1.,0.));
#179=DIRECTION('ref_axis',(1.,0.,0.));
#180=DIRECTION('center_axis',(-1.,0.,-1.22464679914735E-16));
#181=DIRECTION('ref_axis',(-1.22464679914735E-16,0.,1.));
#182=DIRECTION('center_axis',(6.12323399573677E-17,0.,1.));
#183=DIRECTION('ref_axis',(1.,0.,0.));
#184=DIRECTION('center_axis',(0.,1.,0.));
#185=DIRECTION('ref_axis',(0.,0.,1.));
#186=CARTESIAN_POINT('',(0.,0.,0.));
#187=CARTESIAN_POINT('Origin',(9.19655047747865E-15,79.8498403000007,0.));
#188=CARTESIAN_POINT('',(-3.99999199999911,79.6998406000011,-4.89857739941394E-16));
#189=CARTESIAN_POINT('Origin',(9.19655047747865E-15,79.6998406000011,0.));
#190=CARTESIAN_POINT('',(-3.69999259999986,79.9998400000003,-4.53118409445873E-16));
#191=CARTESIAN_POINT('',(-3.84999229999948,79.8498403000007,-4.71488074693634E-16));
#192=CARTESIAN_POINT('Origin',(9.19655047747865E-15,79.9998400000003,0.));
#193=CARTESIAN_POINT('Origin',(9.19655047747865E-15,55.1529985851084,0.));
#194=CARTESIAN_POINT('',(-3.9999919999991,30.6061565702157,-4.89857739941393E-16));
#195=CARTESIAN_POINT('Origin',(9.19655047747865E-15,30.6061565702157,0.));
#196=CARTESIAN_POINT('',(-3.9999919999991,55.1529985851084,-4.89857739941393E-16));
#197=CARTESIAN_POINT('Origin',(9.19655047747865E-15,30.303048285109,0.));
#198=CARTESIAN_POINT('',(-3.64999270000224,29.9999400000024,-4.46995187696896E-16));
#199=CARTESIAN_POINT('Origin',(9.19655047747865E-15,29.9999400000024,0.));
#200=CARTESIAN_POINT('',(-3.82499235000067,30.303048285109,-4.68426463819144E-16));
#201=CARTESIAN_POINT('Origin',(9.19655047747865E-15,22.3124345306109,0.));
#202=CARTESIAN_POINT('',(-3.64999270000224,14.6249290612195,-4.46995187696896E-16));
#203=CARTESIAN_POINT('',(8.74955528978175E-15,14.6249290612195,3.64999270000225));
#204=CARTESIAN_POINT('Origin',(9.19655047747865E-15,14.6249290612195,0.));
#205=CARTESIAN_POINT('',(-3.64999270000224,22.3124345306109,-4.46995187696896E-16));
#206=CARTESIAN_POINT('Origin',(9.19655047747865E-15,14.6249290612195,0.));
#207=CARTESIAN_POINT('Origin',(9.19655047747865E-15,14.0999718000011,0.));
#208=CARTESIAN_POINT('',(8.73794631604373E-15,14.0859840439498,3.74478716438261));
#209=CARTESIAN_POINT('Origin',(9.19655047747865E-15,14.0859840439498,0.));
#210=CARTESIAN_POINT('Origin',(8.92163498129564E-15,14.0999718000011,2.24485538503358));
#211=CARTESIAN_POINT('Ctrl Pts',(9.19655047747865E-15,14.0859840439498,
3.74478716437976));
#212=CARTESIAN_POINT('Ctrl Pts',(-3.74478716437975,14.0859840439498,3.74478716437976));
#213=CARTESIAN_POINT('Ctrl Pts',(-3.74478716437975,14.0859840439498,0.));
#214=CARTESIAN_POINT('Ctrl Pts',(-3.74478716437975,14.0859840439498,-3.74478716437976));
#215=CARTESIAN_POINT('Ctrl Pts',(9.19655047747865E-15,14.0859840439498,
-3.74478716437976));
#216=CARTESIAN_POINT('Ctrl Pts',(3.74478716437977,14.0859840439498,-3.74478716437976));
#217=CARTESIAN_POINT('Ctrl Pts',(3.74478716437977,14.0859840439498,0.));
#218=CARTESIAN_POINT('Ctrl Pts',(3.74478716437977,14.0859840439498,3.74478716437976));
#219=CARTESIAN_POINT('Ctrl Pts',(9.19655047747865E-15,14.0859840439498,
3.74478716437976));
#220=CARTESIAN_POINT('Ctrl Pts',(9.19655047747865E-15,7.34397741730338,
3.68191394222659));
#221=CARTESIAN_POINT('Ctrl Pts',(-3.68191394222658,7.34397741730338,3.68191394222659));
#222=CARTESIAN_POINT('Ctrl Pts',(-3.68191394222658,7.34397741730338,0.));
#223=CARTESIAN_POINT('Ctrl Pts',(-3.68191394222658,7.34397741730338,-3.68191394222659));
#224=CARTESIAN_POINT('Ctrl Pts',(9.19655047747865E-15,7.34397741730338,
-3.68191394222659));
#225=CARTESIAN_POINT('Ctrl Pts',(3.6819139422266,7.34397741730338,-3.68191394222659));
#226=CARTESIAN_POINT('Ctrl Pts',(3.6819139422266,7.34397741730338,0.));
#227=CARTESIAN_POINT('Ctrl Pts',(3.6819139422266,7.34397741730338,3.68191394222659));
#228=CARTESIAN_POINT('Ctrl Pts',(9.19655047747865E-15,7.34397741730338,
3.68191394222659));
#229=CARTESIAN_POINT('Ctrl Pts',(9.19655047747865E-15,0.995101134858489,
1.41246988122474));
#230=CARTESIAN_POINT('Ctrl Pts',(-1.41246988122473,0.995101134858489,1.41246988122474));
#231=CARTESIAN_POINT('Ctrl Pts',(-1.41246988122473,0.995101134858489,0.));
#232=CARTESIAN_POINT('Ctrl Pts',(-1.41246988122473,0.995101134858489,-1.41246988122474));
#233=CARTESIAN_POINT('Ctrl Pts',(9.19655047747865E-15,0.995101134858489,
-1.41246988122474));
#234=CARTESIAN_POINT('Ctrl Pts',(1.41246988122475,0.995101134858489,-1.41246988122474));
#235=CARTESIAN_POINT('Ctrl Pts',(1.41246988122475,0.995101134858489,0.));
#236=CARTESIAN_POINT('Ctrl Pts',(1.41246988122475,0.995101134858489,1.41246988122474));
#237=CARTESIAN_POINT('Ctrl Pts',(9.19655047747865E-15,0.995101134858489,
1.41246988122474));
#238=CARTESIAN_POINT('',(9.02357280558526E-15,0.995101134858487,1.41246988122474));
#239=CARTESIAN_POINT('Origin',(9.19655047747865E-15,0.995101134858487,0.));
#240=CARTESIAN_POINT('Origin',(1.36363107227493E-14,14.4589908719354,-36.253393618158));
#241=CARTESIAN_POINT('Origin',(0.,1.4999970000008,0.));
#242=CARTESIAN_POINT('Origin',(3.69999259999988,79.9998400000003,0.));
#243=UNCERTAINTY_MEASURE_WITH_UNIT(LENGTH_MEASURE(0.01),#247,
'DISTANCE_ACCURACY_VALUE',
'Maximum model space distance between geometric entities at asserted c
onnectivities');
#244=UNCERTAINTY_MEASURE_WITH_UNIT(LENGTH_MEASURE(0.01),#247,
'DISTANCE_ACCURACY_VALUE',
'Maximum model space distance between geometric entities at asserted c
onnectivities');
#245=(
GEOMETRIC_REPRESENTATION_CONTEXT(3)
GLOBAL_UNCERTAINTY_ASSIGNED_CONTEXT((#243))
GLOBAL_UNIT_ASSIGNED_CONTEXT((#247,#249,#250))
REPRESENTATION_CONTEXT('','3D')
);
#246=(
GEOMETRIC_REPRESENTATION_CONTEXT(3)
GLOBAL_UNCERTAINTY_ASSIGNED_CONTEXT((#244))
GLOBAL_UNIT_ASSIGNED_CONTEXT((#247,#249,#250))
REPRESENTATION_CONTEXT('','3D')
);
#247=(
LENGTH_UNIT()
NAMED_UNIT(*)
SI_UNIT(.MILLI.,.METRE.)
);
#248=(
LENGTH_UNIT()
NAMED_UNIT(*)
SI_UNIT($,.METRE.)
);
#249=(
NAMED_UNIT(*)
PLANE_ANGLE_UNIT()
SI_UNIT($,.RADIAN.)
);
#250=(
NAMED_UNIT(*)
SI_UNIT($,.STERADIAN.)
SOLID_ANGLE_UNIT()
);
#251=SHAPE_DEFINITION_REPRESENTATION(#252,#253);
#252=PRODUCT_DEFINITION_SHAPE('',$,#255);
#253=SHAPE_REPRESENTATION('',(#128),#245);
#254=PRODUCT_DEFINITION_CONTEXT('part definition',#259,'design');
#255=PRODUCT_DEFINITION('4CTDB 030 040 141','4CTDB 030 040 141 v1',#256,
#254);
#256=PRODUCT_DEFINITION_FORMATION('',$,#261);
#257=PRODUCT_RELATED_PRODUCT_CATEGORY('4CTDB 030 040 141 v1',
'4CTDB 030 040 141 v1',(#261));
#258=APPLICATION_PROTOCOL_DEFINITION('international standard',
'automotive_design',2009,#259);
#259=APPLICATION_CONTEXT(
'Core Data for Automotive Mechanical Design Process');
#260=PRODUCT_CONTEXT('part definition',#259,'mechanical');
#261=PRODUCT('4CTDB 030 040 141','4CTDB 030 040 141 v1',$,(#260));
#262=PRESENTATION_STYLE_ASSIGNMENT((#263));
#263=SURFACE_STYLE_USAGE(.BOTH.,#264);
#264=SURFACE_SIDE_STYLE('',(#265));
#265=SURFACE_STYLE_FILL_AREA(#266);
#266=FILL_AREA_STYLE('Steel - Satin',(#267));
#267=FILL_AREA_STYLE_COLOUR('Steel - Satin',#268);
#268=COLOUR_RGB('Steel - Satin',0.627450980392157,0.627450980392157,0.627450980392157);
ENDSEC;
END-ISO-10303-21;
