ISO-10303-21;
HEADER;
/* Generated by software containing ST-Developer
 * from STEP Tools, Inc. (www.steptools.com) 
 */

FILE_DESCRIPTION(
/* description */ (''),
/* implementation_level */ '2;1');

FILE_NAME(
/* name */ 'C:/Users/antonins/Desktop/6CTDB 040 750 124.step',
/* time_stamp */ '2021-06-02T12:58:11+02:00',
/* author */ (''),
/* organization */ (''),
/* preprocessor_version */ 'ST-DEVELOPER v18.1',
/* originating_system */ 'Autodesk Translation Framework v10.9.0.1377',

/* authorisation */ '');

FILE_SCHEMA (('AUTOMOTIVE_DESIGN { 1 0 10303 214 3 1 1 }'));
ENDSEC;

DATA;
#10=MECHANICAL_DESIGN_GEOMETRIC_PRESENTATION_REPRESENTATION('',(#13),#196);
#11=SHAPE_REPRESENTATION_RELATIONSHIP('SRR','None',#203,#12);
#12=ADVANCED_BREP_SHAPE_REPRESENTATION('',(#14),#195);
#13=STYLED_ITEM('',(#212),#14);
#14=MANIFOLD_SOLID_BREP('Body1',#87);
#15=PLANE('',#113);
#16=SPHERICAL_SURFACE('',#112,1.99999600000174);
#17=(
BOUNDED_SURFACE()
B_SPLINE_SURFACE(2,2,((#161,#162,#163,#164,#165,#166,#167,#168,#169),(#170,
#171,#172,#173,#174,#175,#176,#177,#178),(#179,#180,#181,#182,#183,#184,
#185,#186,#187)),.UNSPECIFIED.,.F.,.T.,.F.)
B_SPLINE_SURFACE_WITH_KNOTS((3,3),(3,2,2,2,3),(0.51535882161092,0.531407764795119),
(-3.14159265358979,-1.5707963267949,0.,1.5707963267949,3.14159265358979),
 .UNSPECIFIED.)
GEOMETRIC_REPRESENTATION_ITEM()
RATIONAL_B_SPLINE_SURFACE(((1.,0.707106781186548,1.,0.707106781186548,1.,
0.707106781186548,1.,0.707106781186548,1.),(0.999967804100598,0.707084015247754,
0.999967804100598,0.707084015247754,0.999967804100598,0.707084015247754,
0.999967804100598,0.707084015247754,0.999967804100598),(1.,0.707106781186548,
1.,0.707106781186548,1.,0.707106781186548,1.,0.707106781186548,1.)))
REPRESENTATION_ITEM('')
SURFACE()
);
#18=TOROIDAL_SURFACE('',#107,5.99998800000085,1.9999959999995);
#19=CYLINDRICAL_SURFACE('',#104,7.99998400000041);
#20=FACE_OUTER_BOUND('',#26,.T.);
#21=FACE_OUTER_BOUND('',#27,.T.);
#22=FACE_OUTER_BOUND('',#28,.T.);
#23=FACE_OUTER_BOUND('',#29,.T.);
#24=FACE_OUTER_BOUND('',#30,.T.);
#25=FACE_OUTER_BOUND('',#31,.T.);
#26=EDGE_LOOP('',(#60,#61,#62,#63));
#27=EDGE_LOOP('',(#64,#65,#66,#67,#68));
#28=EDGE_LOOP('',(#69,#70,#71,#72,#73));
#29=EDGE_LOOP('',(#74,#75,#76,#77));
#30=EDGE_LOOP('',(#78));
#31=EDGE_LOOP('',(#79));
#32=LINE('',#149,#34);
#33=LINE('',#155,#35);
#34=VECTOR('',#120,7.74998450000105);
#35=VECTOR('',#127,7.99998400000041);
#36=CIRCLE('',#102,7.99998400000042);
#37=CIRCLE('',#103,7.49998500000167);
#38=CIRCLE('',#105,7.99998400000035);
#39=CIRCLE('',#106,7.99998400000035);
#40=CIRCLE('',#108,7.74021638778639);
#41=CIRCLE('',#109,1.9999959999995);
#42=CIRCLE('',#110,1.72418563912961);
#43=CIRCLE('',#111,749.998499999996);
#44=VERTEX_POINT('',#146);
#45=VERTEX_POINT('',#148);
#46=VERTEX_POINT('',#152);
#47=VERTEX_POINT('',#153);
#48=VERTEX_POINT('',#158);
#49=VERTEX_POINT('',#188);
#50=EDGE_CURVE('',#44,#44,#36,.T.);
#51=EDGE_CURVE('',#44,#45,#32,.T.);
#52=EDGE_CURVE('',#45,#45,#37,.T.);
#53=EDGE_CURVE('',#46,#47,#38,.T.);
#54=EDGE_CURVE('',#46,#44,#33,.T.);
#55=EDGE_CURVE('',#47,#46,#39,.T.);
#56=EDGE_CURVE('',#48,#48,#40,.T.);
#57=EDGE_CURVE('',#48,#47,#41,.T.);
#58=EDGE_CURVE('',#49,#49,#42,.T.);
#59=EDGE_CURVE('',#49,#48,#43,.T.);
#60=ORIENTED_EDGE('',*,*,#50,.F.);
#61=ORIENTED_EDGE('',*,*,#51,.T.);
#62=ORIENTED_EDGE('',*,*,#52,.T.);
#63=ORIENTED_EDGE('',*,*,#51,.F.);
#64=ORIENTED_EDGE('',*,*,#53,.F.);
#65=ORIENTED_EDGE('',*,*,#54,.T.);
#66=ORIENTED_EDGE('',*,*,#50,.T.);
#67=ORIENTED_EDGE('',*,*,#54,.F.);
#68=ORIENTED_EDGE('',*,*,#55,.F.);
#69=ORIENTED_EDGE('',*,*,#56,.F.);
#70=ORIENTED_EDGE('',*,*,#57,.T.);
#71=ORIENTED_EDGE('',*,*,#55,.T.);
#72=ORIENTED_EDGE('',*,*,#53,.T.);
#73=ORIENTED_EDGE('',*,*,#57,.F.);
#74=ORIENTED_EDGE('',*,*,#58,.F.);
#75=ORIENTED_EDGE('',*,*,#59,.T.);
#76=ORIENTED_EDGE('',*,*,#56,.T.);
#77=ORIENTED_EDGE('',*,*,#59,.F.);
#78=ORIENTED_EDGE('',*,*,#58,.T.);
#79=ORIENTED_EDGE('',*,*,#52,.F.);
#80=CONICAL_SURFACE('',#101,7.74998450000105,0.785398163397448);
#81=ADVANCED_FACE('',(#20),#80,.T.);
#82=ADVANCED_FACE('',(#21),#19,.T.);
#83=ADVANCED_FACE('',(#22),#18,.T.);
#84=ADVANCED_FACE('',(#23),#17,.F.);
#85=ADVANCED_FACE('',(#24),#16,.T.);
#86=ADVANCED_FACE('',(#25),#15,.T.);
#87=CLOSED_SHELL('',(#81,#82,#83,#84,#85,#86));
#88=DERIVED_UNIT_ELEMENT(#90,1.);
#89=DERIVED_UNIT_ELEMENT(#198,-3.);
#90=(
MASS_UNIT()
NAMED_UNIT(*)
SI_UNIT(.KILO.,.GRAM.)
);
#91=DERIVED_UNIT((#88,#89));
#92=MEASURE_REPRESENTATION_ITEM('density measure',
POSITIVE_RATIO_MEASURE(7850.),#91);
#93=PROPERTY_DEFINITION_REPRESENTATION(#98,#95);
#94=PROPERTY_DEFINITION_REPRESENTATION(#99,#96);
#95=REPRESENTATION('material name',(#97),#195);
#96=REPRESENTATION('density',(#92),#195);
#97=DESCRIPTIVE_REPRESENTATION_ITEM('Steel','Steel');
#98=PROPERTY_DEFINITION('material property','material name',#205);
#99=PROPERTY_DEFINITION('material property','density of part',#205);
#100=AXIS2_PLACEMENT_3D('placement',#144,#114,#115);
#101=AXIS2_PLACEMENT_3D('',#145,#116,#117);
#102=AXIS2_PLACEMENT_3D('',#147,#118,#119);
#103=AXIS2_PLACEMENT_3D('',#150,#121,#122);
#104=AXIS2_PLACEMENT_3D('',#151,#123,#124);
#105=AXIS2_PLACEMENT_3D('',#154,#125,#126);
#106=AXIS2_PLACEMENT_3D('',#156,#128,#129);
#107=AXIS2_PLACEMENT_3D('',#157,#130,#131);
#108=AXIS2_PLACEMENT_3D('',#159,#132,#133);
#109=AXIS2_PLACEMENT_3D('',#160,#134,#135);
#110=AXIS2_PLACEMENT_3D('',#189,#136,#137);
#111=AXIS2_PLACEMENT_3D('',#190,#138,#139);
#112=AXIS2_PLACEMENT_3D('',#191,#140,#141);
#113=AXIS2_PLACEMENT_3D('',#192,#142,#143);
#114=DIRECTION('axis',(0.,0.,1.));
#115=DIRECTION('refdir',(1.,0.,0.));
#116=DIRECTION('center_axis',(0.,-1.,0.));
#117=DIRECTION('ref_axis',(1.,0.,0.));
#118=DIRECTION('center_axis',(0.,-1.,0.));
#119=DIRECTION('ref_axis',(1.,0.,0.));
#120=DIRECTION('',(0.707106781186548,0.707106781186548,8.65956056235493E-17));
#121=DIRECTION('center_axis',(0.,-1.,0.));
#122=DIRECTION('ref_axis',(1.,0.,0.));
#123=DIRECTION('center_axis',(0.,-1.,0.));
#124=DIRECTION('ref_axis',(1.,0.,0.));
#125=DIRECTION('center_axis',(0.,-1.,0.));
#126=DIRECTION('ref_axis',(1.,0.,0.));
#127=DIRECTION('',(0.,1.,0.));
#128=DIRECTION('center_axis',(0.,-1.,0.));
#129=DIRECTION('ref_axis',(1.,0.,0.));
#130=DIRECTION('center_axis',(0.,-1.,0.));
#131=DIRECTION('ref_axis',(0.,0.,-1.));
#132=DIRECTION('center_axis',(0.,-1.,0.));
#133=DIRECTION('ref_axis',(1.,0.,0.));
#134=DIRECTION('center_axis',(-1.,0.,-1.22464679914744E-16));
#135=DIRECTION('ref_axis',(-1.22464679914744E-16,0.,1.));
#136=DIRECTION('center_axis',(0.,-1.,0.));
#137=DIRECTION('ref_axis',(1.,0.,0.));
#138=DIRECTION('center_axis',(-1.,0.,-1.22464679914736E-16));
#139=DIRECTION('ref_axis',(-1.22464679914736E-16,0.,1.));
#140=DIRECTION('center_axis',(6.12323399573677E-17,0.,1.));
#141=DIRECTION('ref_axis',(1.,0.,0.));
#142=DIRECTION('center_axis',(0.,1.,0.));
#143=DIRECTION('ref_axis',(0.,0.,1.));
#144=CARTESIAN_POINT('',(0.,0.,0.));
#145=CARTESIAN_POINT('Origin',(-2.18269846641306E-12,109.749780499999,0.));
#146=CARTESIAN_POINT('',(-7.9999840000026,109.499780999999,-9.79715479883056E-16));
#147=CARTESIAN_POINT('Origin',(-2.18269846641306E-12,109.499780999999,0.));
#148=CARTESIAN_POINT('',(-7.49998500000385,109.999779999998,-9.18483262390521E-16));
#149=CARTESIAN_POINT('',(-7.74998450000323,109.749780499999,-9.49099371136788E-16));
#150=CARTESIAN_POINT('Origin',(-2.18269846641306E-12,109.999779999998,0.));
#151=CARTESIAN_POINT('Origin',(-2.18269846641306E-12,60.9486172794549,0.));
#152=CARTESIAN_POINT('',(-7.9999840000026,12.3974535589104,-9.79715479883055E-16));
#153=CARTESIAN_POINT('',(-2.18367818189294E-12,12.3974535589104,7.99998400000035));
#154=CARTESIAN_POINT('Origin',(-2.18269846641306E-12,12.3974535589104,0.));
#155=CARTESIAN_POINT('',(-7.9999840000026,60.9486172794549,-9.79715479883055E-16));
#156=CARTESIAN_POINT('Origin',(-2.18269846641306E-12,12.3974535589104,0.));
#157=CARTESIAN_POINT('Origin',(-2.18269846641306E-12,12.3974535589104,0.));
#158=CARTESIAN_POINT('',(-2.18364636953546E-12,11.4117613359784,7.74021638778639));
#159=CARTESIAN_POINT('Origin',(-2.18269846641306E-12,11.4117613359784,0.));
#160=CARTESIAN_POINT('Origin',(-2.18343325302297E-12,12.3974535589104,5.99998800000085));
#161=CARTESIAN_POINT('Ctrl Pts',(-2.18269846641306E-12,11.4117613359784,
7.74021638778625));
#162=CARTESIAN_POINT('Ctrl Pts',(-7.74021638778843,11.4117613359784,7.74021638778625));
#163=CARTESIAN_POINT('Ctrl Pts',(-7.74021638778843,11.4117613359784,-2.52435489670724E-28));
#164=CARTESIAN_POINT('Ctrl Pts',(-7.74021638778843,11.4117613359784,-7.74021638778625));
#165=CARTESIAN_POINT('Ctrl Pts',(-2.18269846641306E-12,11.4117613359784,
-7.74021638778625));
#166=CARTESIAN_POINT('Ctrl Pts',(7.74021638778406,11.4117613359784,-7.74021638778625));
#167=CARTESIAN_POINT('Ctrl Pts',(7.74021638778406,11.4117613359784,2.52435489670724E-28));
#168=CARTESIAN_POINT('Ctrl Pts',(7.74021638778406,11.4117613359784,7.74021638778625));
#169=CARTESIAN_POINT('Ctrl Pts',(-2.18269846641306E-12,11.4117613359784,
7.74021638778625));
#170=CARTESIAN_POINT('Ctrl Pts',(-2.18269846641306E-12,6.1749939601704,
4.77403050561595));
#171=CARTESIAN_POINT('Ctrl Pts',(-4.77403050561813,6.1749939601704,4.77403050561594));
#172=CARTESIAN_POINT('Ctrl Pts',(-4.77403050561813,6.17499396017038,0.));
#173=CARTESIAN_POINT('Ctrl Pts',(-4.77403050561813,6.17499396017036,-4.77403050561594));
#174=CARTESIAN_POINT('Ctrl Pts',(-2.18269846641306E-12,6.17499396017036,
-4.77403050561595));
#175=CARTESIAN_POINT('Ctrl Pts',(4.77403050561376,6.17499396017036,-4.77403050561594));
#176=CARTESIAN_POINT('Ctrl Pts',(4.77403050561376,6.17499396017038,0.));
#177=CARTESIAN_POINT('Ctrl Pts',(4.77403050561376,6.1749939601704,4.77403050561594));
#178=CARTESIAN_POINT('Ctrl Pts',(-2.18269846641306E-12,6.1749939601704,
4.77403050561595));
#179=CARTESIAN_POINT('Ctrl Pts',(-2.18269846641306E-12,0.986503088415749,
1.7241856391296));
#180=CARTESIAN_POINT('Ctrl Pts',(-1.72418563913178,0.986503088415749,1.7241856391296));
#181=CARTESIAN_POINT('Ctrl Pts',(-1.72418563913178,0.986503088415773,0.));
#182=CARTESIAN_POINT('Ctrl Pts',(-1.72418563913178,0.986503088415798,-1.7241856391296));
#183=CARTESIAN_POINT('Ctrl Pts',(-2.18269846641306E-12,0.986503088415798,
-1.7241856391296));
#184=CARTESIAN_POINT('Ctrl Pts',(1.72418563912742,0.986503088415798,-1.7241856391296));
#185=CARTESIAN_POINT('Ctrl Pts',(1.72418563912742,0.986503088415773,0.));
#186=CARTESIAN_POINT('Ctrl Pts',(1.72418563912742,0.986503088415749,1.7241856391296));
#187=CARTESIAN_POINT('Ctrl Pts',(-2.18269846641306E-12,0.986503088415749,
1.7241856391296));
#188=CARTESIAN_POINT('',(-2.18290961825547E-12,0.986503088415702,1.72418563912961));
#189=CARTESIAN_POINT('Origin',(-2.18269846641306E-12,0.986503088415702,
0.));
#190=CARTESIAN_POINT('Origin',(-2.10372767735193E-12,381.046344934084,-644.845429033946));
#191=CARTESIAN_POINT('Origin',(0.,1.99999599999956,0.));
#192=CARTESIAN_POINT('Origin',(7.49998499999949,109.999779999998,0.));
#193=UNCERTAINTY_MEASURE_WITH_UNIT(LENGTH_MEASURE(0.01),#197,
'DISTANCE_ACCURACY_VALUE',
'Maximum model space distance between geometric entities at asserted c
onnectivities');
#194=UNCERTAINTY_MEASURE_WITH_UNIT(LENGTH_MEASURE(0.01),#197,
'DISTANCE_ACCURACY_VALUE',
'Maximum model space distance between geometric entities at asserted c
onnectivities');
#195=(
GEOMETRIC_REPRESENTATION_CONTEXT(3)
GLOBAL_UNCERTAINTY_ASSIGNED_CONTEXT((#193))
GLOBAL_UNIT_ASSIGNED_CONTEXT((#197,#199,#200))
REPRESENTATION_CONTEXT('','3D')
);
#196=(
GEOMETRIC_REPRESENTATION_CONTEXT(3)
GLOBAL_UNCERTAINTY_ASSIGNED_CONTEXT((#194))
GLOBAL_UNIT_ASSIGNED_CONTEXT((#197,#199,#200))
REPRESENTATION_CONTEXT('','3D')
);
#197=(
LENGTH_UNIT()
NAMED_UNIT(*)
SI_UNIT(.MILLI.,.METRE.)
);
#198=(
LENGTH_UNIT()
NAMED_UNIT(*)
SI_UNIT($,.METRE.)
);
#199=(
NAMED_UNIT(*)
PLANE_ANGLE_UNIT()
SI_UNIT($,.RADIAN.)
);
#200=(
NAMED_UNIT(*)
SI_UNIT($,.STERADIAN.)
SOLID_ANGLE_UNIT()
);
#201=SHAPE_DEFINITION_REPRESENTATION(#202,#203);
#202=PRODUCT_DEFINITION_SHAPE('',$,#205);
#203=SHAPE_REPRESENTATION('',(#100),#195);
#204=PRODUCT_DEFINITION_CONTEXT('part definition',#209,'design');
#205=PRODUCT_DEFINITION('6CTDB 040 750 124','6CTDB 040 750 124 v1',#206,
#204);
#206=PRODUCT_DEFINITION_FORMATION('',$,#211);
#207=PRODUCT_RELATED_PRODUCT_CATEGORY('6CTDB 040 750 124 v1',
'6CTDB 040 750 124 v1',(#211));
#208=APPLICATION_PROTOCOL_DEFINITION('international standard',
'automotive_design',2009,#209);
#209=APPLICATION_CONTEXT(
'Core Data for Automotive Mechanical Design Process');
#210=PRODUCT_CONTEXT('part definition',#209,'mechanical');
#211=PRODUCT('6CTDB 040 750 124','6CTDB 040 750 124 v1',$,(#210));
#212=PRESENTATION_STYLE_ASSIGNMENT((#213));
#213=SURFACE_STYLE_USAGE(.BOTH.,#214);
#214=SURFACE_SIDE_STYLE('',(#215));
#215=SURFACE_STYLE_FILL_AREA(#216);
#216=FILL_AREA_STYLE('Steel - Satin',(#217));
#217=FILL_AREA_STYLE_COLOUR('Steel - Satin',#218);
#218=COLOUR_RGB('Steel - Satin',0.627450980392157,0.627450980392157,0.627450980392157);
ENDSEC;
END-ISO-10303-21;
