ISO-10303-21;
HEADER;
/* Generated by software containing ST-Developer
 * from STEP Tools, Inc. (www.steptools.com) 
 */

FILE_DESCRIPTION(
/* description */ (''),
/* implementation_level */ '2;1');

FILE_NAME(
/* name */ 'C:/Users/antonins/Desktop/6CTDB 060 1000 167.step',
/* time_stamp */ '2021-06-02T12:58:46+02:00',
/* author */ (''),
/* organization */ (''),
/* preprocessor_version */ 'ST-DEVELOPER v18.1',
/* originating_system */ 'Autodesk Translation Framework v10.9.0.1377',

/* authorisation */ '');

FILE_SCHEMA (('AUTOMOTIVE_DESIGN { 1 0 10303 214 3 1 1 }'));
ENDSEC;

DATA;
#10=MECHANICAL_DESIGN_GEOMETRIC_PRESENTATION_REPRESENTATION('',(#13),#205);
#11=SHAPE_REPRESENTATION_RELATIONSHIP('SRR','None',#212,#12);
#12=ADVANCED_BREP_SHAPE_REPRESENTATION('',(#14),#204);
#13=STYLED_ITEM('',(#221),#14);
#14=MANIFOLD_SOLID_BREP('Body1',#93);
#15=SPHERICAL_SURFACE('',#118,2.99999400000163);
#16=(
BOUNDED_SURFACE()
B_SPLINE_SURFACE(2,2,((#168,#169,#170,#171,#172,#173,#174,#175,#176),(#177,
#178,#179,#180,#181,#182,#183,#184,#185),(#186,#187,#188,#189,#190,#191,
#192,#193,#194)),.UNSPECIFIED.,.F.,.T.,.F.)
B_SPLINE_SURFACE_WITH_KNOTS((3,3),(3,2,2,2,3),(0.34173427920114,0.356397421596666),
(-3.14159265358979,-1.5707963267949,0.,1.5707963267949,3.14159265358979),
 .UNSPECIFIED.)
GEOMETRIC_REPRESENTATION_ITEM()
RATIONAL_B_SPLINE_SURFACE(((1.,0.707106781186548,1.,0.707106781186548,1.,
0.707106781186548,1.,0.707106781186548,1.),(0.999973124152272,0.707087777092369,
0.999973124152272,0.707087777092369,0.999973124152272,0.707087777092369,
0.999973124152272,0.707087777092369,0.999973124152272),(1.,0.707106781186548,
1.,0.707106781186548,1.,0.707106781186548,1.,0.707106781186548,1.)))
REPRESENTATION_ITEM('')
SURFACE()
);
#17=TOROIDAL_SURFACE('',#113,4.99999000000114,2.99999399999783);
#18=CYLINDRICAL_SURFACE('',#110,7.99998399999821);
#19=FACE_OUTER_BOUND('',#25,.T.);
#20=FACE_OUTER_BOUND('',#26,.T.);
#21=FACE_OUTER_BOUND('',#27,.T.);
#22=FACE_OUTER_BOUND('',#28,.T.);
#23=FACE_OUTER_BOUND('',#29,.T.);
#24=FACE_OUTER_BOUND('',#30,.T.);
#25=EDGE_LOOP('',(#63,#64,#65,#66));
#26=EDGE_LOOP('',(#67,#68,#69,#70,#71));
#27=EDGE_LOOP('',(#72,#73,#74,#75,#76));
#28=EDGE_LOOP('',(#77,#78,#79,#80));
#29=EDGE_LOOP('',(#81));
#30=EDGE_LOOP('',(#82,#83,#84));
#31=LINE('',#156,#34);
#32=LINE('',#162,#35);
#33=LINE('',#201,#36);
#34=VECTOR('',#126,7.75276060527631);
#35=VECTOR('',#133,7.99998399999821);
#36=VECTOR('',#150,3.75276860527719);
#37=CIRCLE('',#108,7.99998399999823);
#38=CIRCLE('',#109,7.50553721055439);
#39=CIRCLE('',#111,7.9999839999982);
#40=CIRCLE('',#112,7.9999839999982);
#41=CIRCLE('',#114,7.82650901187425);
#42=CIRCLE('',#115,2.99999399999783);
#43=CIRCLE('',#116,2.81147390659004);
#44=CIRCLE('',#117,999.997999999997);
#45=VERTEX_POINT('',#153);
#46=VERTEX_POINT('',#155);
#47=VERTEX_POINT('',#159);
#48=VERTEX_POINT('',#160);
#49=VERTEX_POINT('',#165);
#50=VERTEX_POINT('',#195);
#51=VERTEX_POINT('',#200);
#52=EDGE_CURVE('',#45,#45,#37,.T.);
#53=EDGE_CURVE('',#45,#46,#31,.T.);
#54=EDGE_CURVE('',#46,#46,#38,.T.);
#55=EDGE_CURVE('',#47,#48,#39,.T.);
#56=EDGE_CURVE('',#47,#45,#32,.T.);
#57=EDGE_CURVE('',#48,#47,#40,.T.);
#58=EDGE_CURVE('',#49,#49,#41,.T.);
#59=EDGE_CURVE('',#49,#48,#42,.T.);
#60=EDGE_CURVE('',#50,#50,#43,.T.);
#61=EDGE_CURVE('',#50,#49,#44,.T.);
#62=EDGE_CURVE('',#51,#46,#33,.T.);
#63=ORIENTED_EDGE('',*,*,#52,.F.);
#64=ORIENTED_EDGE('',*,*,#53,.T.);
#65=ORIENTED_EDGE('',*,*,#54,.T.);
#66=ORIENTED_EDGE('',*,*,#53,.F.);
#67=ORIENTED_EDGE('',*,*,#55,.F.);
#68=ORIENTED_EDGE('',*,*,#56,.T.);
#69=ORIENTED_EDGE('',*,*,#52,.T.);
#70=ORIENTED_EDGE('',*,*,#56,.F.);
#71=ORIENTED_EDGE('',*,*,#57,.F.);
#72=ORIENTED_EDGE('',*,*,#58,.F.);
#73=ORIENTED_EDGE('',*,*,#59,.T.);
#74=ORIENTED_EDGE('',*,*,#57,.T.);
#75=ORIENTED_EDGE('',*,*,#55,.T.);
#76=ORIENTED_EDGE('',*,*,#59,.F.);
#77=ORIENTED_EDGE('',*,*,#60,.F.);
#78=ORIENTED_EDGE('',*,*,#61,.T.);
#79=ORIENTED_EDGE('',*,*,#58,.T.);
#80=ORIENTED_EDGE('',*,*,#61,.F.);
#81=ORIENTED_EDGE('',*,*,#60,.T.);
#82=ORIENTED_EDGE('',*,*,#62,.T.);
#83=ORIENTED_EDGE('',*,*,#54,.F.);
#84=ORIENTED_EDGE('',*,*,#62,.F.);
#85=CONICAL_SURFACE('',#107,7.75276060527631,0.785398163392878);
#86=CONICAL_SURFACE('',#119,3.75276860527719,1.56522093467692);
#87=ADVANCED_FACE('',(#19),#85,.T.);
#88=ADVANCED_FACE('',(#20),#18,.T.);
#89=ADVANCED_FACE('',(#21),#17,.T.);
#90=ADVANCED_FACE('',(#22),#16,.F.);
#91=ADVANCED_FACE('',(#23),#15,.T.);
#92=ADVANCED_FACE('',(#24),#86,.F.);
#93=CLOSED_SHELL('',(#87,#88,#89,#90,#91,#92));
#94=DERIVED_UNIT_ELEMENT(#96,1.);
#95=DERIVED_UNIT_ELEMENT(#207,-3.);
#96=(
MASS_UNIT()
NAMED_UNIT(*)
SI_UNIT(.KILO.,.GRAM.)
);
#97=DERIVED_UNIT((#94,#95));
#98=MEASURE_REPRESENTATION_ITEM('density measure',
POSITIVE_RATIO_MEASURE(7850.),#97);
#99=PROPERTY_DEFINITION_REPRESENTATION(#104,#101);
#100=PROPERTY_DEFINITION_REPRESENTATION(#105,#102);
#101=REPRESENTATION('material name',(#103),#204);
#102=REPRESENTATION('density',(#98),#204);
#103=DESCRIPTIVE_REPRESENTATION_ITEM('Steel','Steel');
#104=PROPERTY_DEFINITION('material property','material name',#214);
#105=PROPERTY_DEFINITION('material property','density of part',#214);
#106=AXIS2_PLACEMENT_3D('placement',#151,#120,#121);
#107=AXIS2_PLACEMENT_3D('',#152,#122,#123);
#108=AXIS2_PLACEMENT_3D('',#154,#124,#125);
#109=AXIS2_PLACEMENT_3D('',#157,#127,#128);
#110=AXIS2_PLACEMENT_3D('',#158,#129,#130);
#111=AXIS2_PLACEMENT_3D('',#161,#131,#132);
#112=AXIS2_PLACEMENT_3D('',#163,#134,#135);
#113=AXIS2_PLACEMENT_3D('',#164,#136,#137);
#114=AXIS2_PLACEMENT_3D('',#166,#138,#139);
#115=AXIS2_PLACEMENT_3D('',#167,#140,#141);
#116=AXIS2_PLACEMENT_3D('',#196,#142,#143);
#117=AXIS2_PLACEMENT_3D('',#197,#144,#145);
#118=AXIS2_PLACEMENT_3D('',#198,#146,#147);
#119=AXIS2_PLACEMENT_3D('',#199,#148,#149);
#120=DIRECTION('axis',(0.,0.,1.));
#121=DIRECTION('refdir',(1.,0.,0.));
#122=DIRECTION('center_axis',(0.,-1.,0.));
#123=DIRECTION('ref_axis',(1.,0.,0.));
#124=DIRECTION('center_axis',(0.,-1.,0.));
#125=DIRECTION('ref_axis',(1.,0.,0.));
#126=DIRECTION('',(0.707106781183316,0.707106781189779,8.65956056231535E-17));
#127=DIRECTION('center_axis',(0.,-1.,0.));
#128=DIRECTION('ref_axis',(1.,0.,0.));
#129=DIRECTION('center_axis',(0.,-1.,0.));
#130=DIRECTION('ref_axis',(1.,0.,0.));
#131=DIRECTION('center_axis',(0.,-1.,0.));
#132=DIRECTION('ref_axis',(1.,0.,0.));
#133=DIRECTION('',(0.,1.,0.));
#134=DIRECTION('center_axis',(0.,-1.,0.));
#135=DIRECTION('ref_axis',(1.,0.,0.));
#136=DIRECTION('center_axis',(0.,-1.,0.));
#137=DIRECTION('ref_axis',(0.,0.,-1.));
#138=DIRECTION('center_axis',(0.,-1.,0.));
#139=DIRECTION('ref_axis',(1.,0.,0.));
#140=DIRECTION('center_axis',(-1.,0.,-1.22464679914735E-16));
#141=DIRECTION('ref_axis',(-1.22464679914735E-16,0.,1.));
#142=DIRECTION('center_axis',(0.,-1.,0.));
#143=DIRECTION('ref_axis',(1.,0.,0.));
#144=DIRECTION('center_axis',(-1.,0.,-1.22464679914735E-16));
#145=DIRECTION('ref_axis',(-1.22464679914735E-16,0.,1.));
#146=DIRECTION('center_axis',(6.12323399573677E-17,0.,1.));
#147=DIRECTION('ref_axis',(1.,0.,0.));
#148=DIRECTION('center_axis',(0.,1.,0.));
#149=DIRECTION('ref_axis',(1.,0.,0.));
#150=DIRECTION('',(-0.999984457541627,0.00557536323286155,-1.22462776512546E-16));
#151=CARTESIAN_POINT('',(0.,0.,0.));
#152=CARTESIAN_POINT('Origin',(2.11301115132623E-14,109.796113045461,0.));
#153=CARTESIAN_POINT('',(-7.9999839999982,109.548889650737,-9.79715479882786E-16));
#154=CARTESIAN_POINT('Origin',(2.11301115132623E-14,109.548889650737,0.));
#155=CARTESIAN_POINT('',(-7.50553721055437,110.043336440185,-9.19163212078678E-16));
#156=CARTESIAN_POINT('',(-7.75276060527629,109.796113045461,-9.49439345980733E-16));
#157=CARTESIAN_POINT('Origin',(2.11301115132623E-14,110.043336440185,0.));
#158=CARTESIAN_POINT('Origin',(2.11301115132623E-14,63.1431216366195,0.));
#159=CARTESIAN_POINT('',(-7.99998399999819,16.7373536225023,-9.79715479882785E-16));
#160=CARTESIAN_POINT('',(2.01503960333795E-14,16.7373536225023,7.9999839999982));
#161=CARTESIAN_POINT('Origin',(2.11301115132623E-14,16.7373536225023,0.));
#162=CARTESIAN_POINT('',(-7.99998399999819,63.1431216366195,-9.79715479882785E-16));
#163=CARTESIAN_POINT('Origin',(2.11301115132623E-14,16.7373536225023,0.));
#164=CARTESIAN_POINT('Origin',(2.11301115132623E-14,16.7373536225023,0.));
#165=CARTESIAN_POINT('',(2.01716405922733E-14,15.7319908643161,7.82650901187425));
#166=CARTESIAN_POINT('Origin',(2.11301115132623E-14,15.7319908643161,0.));
#167=CARTESIAN_POINT('Origin',(2.05177893383353E-14,16.7373536225023,4.99999000000114));
#168=CARTESIAN_POINT('Ctrl Pts',(2.11301115132623E-14,15.7319908643161,
7.82650901187412));
#169=CARTESIAN_POINT('Ctrl Pts',(-7.8265090118741,15.7319908643161,7.82650901187412));
#170=CARTESIAN_POINT('Ctrl Pts',(-7.8265090118741,15.7319908643161,3.94430452610506E-30));
#171=CARTESIAN_POINT('Ctrl Pts',(-7.8265090118741,15.7319908643161,-7.82650901187412));
#172=CARTESIAN_POINT('Ctrl Pts',(2.11301115132623E-14,15.7319908643161,
-7.82650901187412));
#173=CARTESIAN_POINT('Ctrl Pts',(7.82650901187414,15.7319908643161,-7.82650901187412));
#174=CARTESIAN_POINT('Ctrl Pts',(7.82650901187414,15.7319908643161,-3.94430452610506E-30));
#175=CARTESIAN_POINT('Ctrl Pts',(7.82650901187414,15.7319908643161,7.82650901187412));
#176=CARTESIAN_POINT('Ctrl Pts',(2.11301115132623E-14,15.7319908643161,
7.82650901187412));
#177=CARTESIAN_POINT('Ctrl Pts',(2.11301115132623E-14,8.82425863667709,
5.36950210855264));
#178=CARTESIAN_POINT('Ctrl Pts',(-5.36950210855262,8.82425863667709,5.36950210855264));
#179=CARTESIAN_POINT('Ctrl Pts',(-5.36950210855262,8.82425863667706,3.94430452610506E-30));
#180=CARTESIAN_POINT('Ctrl Pts',(-5.36950210855262,8.82425863667703,-5.36950210855264));
#181=CARTESIAN_POINT('Ctrl Pts',(2.11301115132623E-14,8.82425863667703,
-5.36950210855264));
#182=CARTESIAN_POINT('Ctrl Pts',(5.36950210855266,8.82425863667703,-5.36950210855264));
#183=CARTESIAN_POINT('Ctrl Pts',(5.36950210855266,8.82425863667706,-3.94430452610506E-30));
#184=CARTESIAN_POINT('Ctrl Pts',(5.36950210855266,8.82425863667709,5.36950210855264));
#185=CARTESIAN_POINT('Ctrl Pts',(2.11301115132623E-14,8.82425863667709,
5.36950210855264));
#186=CARTESIAN_POINT('Ctrl Pts',(2.11301115132623E-14,1.95329515477106,
2.8114739065877));
#187=CARTESIAN_POINT('Ctrl Pts',(-2.81147390658768,1.95329515477106,2.8114739065877));
#188=CARTESIAN_POINT('Ctrl Pts',(-2.81147390658768,1.95329515477106,0.));
#189=CARTESIAN_POINT('Ctrl Pts',(-2.81147390658768,1.95329515477105,-2.8114739065877));
#190=CARTESIAN_POINT('Ctrl Pts',(2.11301115132623E-14,1.95329515477105,
-2.8114739065877));
#191=CARTESIAN_POINT('Ctrl Pts',(2.81147390658772,1.95329515477105,-2.8114739065877));
#192=CARTESIAN_POINT('Ctrl Pts',(2.81147390658772,1.95329515477106,0.));
#193=CARTESIAN_POINT('Ctrl Pts',(2.81147390658772,1.95329515477106,2.8114739065877));
#194=CARTESIAN_POINT('Ctrl Pts',(2.11301115132623E-14,1.95329515477106,
2.8114739065877));
#195=CARTESIAN_POINT('',(2.07858052612031E-14,1.95329515477013,2.81147390659004));
#196=CARTESIAN_POINT('Origin',(2.11301115132623E-14,1.95329515477015,0.));
#197=CARTESIAN_POINT('Origin',(1.35554555947521E-13,350.852910232052,-934.346494956143));
#198=CARTESIAN_POINT('Origin',(0.,2.99999400000161,0.));
#199=CARTESIAN_POINT('Origin',(2.11301115132623E-14,110.022413066881,0.));
#200=CARTESIAN_POINT('',(1.77635683940025E-14,110.001489693577,0.));
#201=CARTESIAN_POINT('',(-3.75276860527717,110.022413066881,-4.59581606039339E-16));
#202=UNCERTAINTY_MEASURE_WITH_UNIT(LENGTH_MEASURE(0.01),#206,
'DISTANCE_ACCURACY_VALUE',
'Maximum model space distance between geometric entities at asserted c
onnectivities');
#203=UNCERTAINTY_MEASURE_WITH_UNIT(LENGTH_MEASURE(0.01),#206,
'DISTANCE_ACCURACY_VALUE',
'Maximum model space distance between geometric entities at asserted c
onnectivities');
#204=(
GEOMETRIC_REPRESENTATION_CONTEXT(3)
GLOBAL_UNCERTAINTY_ASSIGNED_CONTEXT((#202))
GLOBAL_UNIT_ASSIGNED_CONTEXT((#206,#208,#209))
REPRESENTATION_CONTEXT('','3D')
);
#205=(
GEOMETRIC_REPRESENTATION_CONTEXT(3)
GLOBAL_UNCERTAINTY_ASSIGNED_CONTEXT((#203))
GLOBAL_UNIT_ASSIGNED_CONTEXT((#206,#208,#209))
REPRESENTATION_CONTEXT('','3D')
);
#206=(
LENGTH_UNIT()
NAMED_UNIT(*)
SI_UNIT(.MILLI.,.METRE.)
);
#207=(
LENGTH_UNIT()
NAMED_UNIT(*)
SI_UNIT($,.METRE.)
);
#208=(
NAMED_UNIT(*)
PLANE_ANGLE_UNIT()
SI_UNIT($,.RADIAN.)
);
#209=(
NAMED_UNIT(*)
SI_UNIT($,.STERADIAN.)
SOLID_ANGLE_UNIT()
);
#210=SHAPE_DEFINITION_REPRESENTATION(#211,#212);
#211=PRODUCT_DEFINITION_SHAPE('',$,#214);
#212=SHAPE_REPRESENTATION('',(#106),#204);
#213=PRODUCT_DEFINITION_CONTEXT('part definition',#218,'design');
#214=PRODUCT_DEFINITION('6CTDB 060 1000 167','6CTDB 060 1000 167 v1',#215,
#213);
#215=PRODUCT_DEFINITION_FORMATION('',$,#220);
#216=PRODUCT_RELATED_PRODUCT_CATEGORY('6CTDB 060 1000 167 v1',
'6CTDB 060 1000 167 v1',(#220));
#217=APPLICATION_PROTOCOL_DEFINITION('international standard',
'automotive_design',2009,#218);
#218=APPLICATION_CONTEXT(
'Core Data for Automotive Mechanical Design Process');
#219=PRODUCT_CONTEXT('part definition',#218,'mechanical');
#220=PRODUCT('6CTDB 060 1000 167','6CTDB 060 1000 167 v1',$,(#219));
#221=PRESENTATION_STYLE_ASSIGNMENT((#222));
#222=SURFACE_STYLE_USAGE(.BOTH.,#223);
#223=SURFACE_SIDE_STYLE('',(#224));
#224=SURFACE_STYLE_FILL_AREA(#225);
#225=FILL_AREA_STYLE('Steel - Satin',(#226));
#226=FILL_AREA_STYLE_COLOUR('Steel - Satin',#227);
#227=COLOUR_RGB('Steel - Satin',0.627450980392157,0.627450980392157,0.627450980392157);
ENDSEC;
END-ISO-10303-21;
