ISO-10303-21;
HEADER;
/* Generated by software containing ST-Developer
 * from STEP Tools, Inc. (www.steptools.com) 
 */

FILE_DESCRIPTION(
/* description */ (''),
/* implementation_level */ '2;1');

FILE_NAME(
/* name */ 'C:/Users/antonins/Desktop/4CTDB 015 020 071 v1.step',
/* time_stamp */ '2021-06-02T12:57:13+02:00',
/* author */ (''),
/* organization */ (''),
/* preprocessor_version */ 'ST-DEVELOPER v18.1',
/* originating_system */ 'Autodesk Translation Framework v10.9.0.1377',

/* authorisation */ '');

FILE_SCHEMA (('AUTOMOTIVE_DESIGN { 1 0 10303 214 3 1 1 }'));
ENDSEC;

DATA;
#10=MECHANICAL_DESIGN_GEOMETRIC_PRESENTATION_REPRESENTATION('',(#13),#246);
#11=SHAPE_REPRESENTATION_RELATIONSHIP('SRR','None',#253,#12);
#12=ADVANCED_BREP_SHAPE_REPRESENTATION('',(#14),#245);
#13=STYLED_ITEM('',(#262),#14);
#14=MANIFOLD_SOLID_BREP('Body1',#115);
#15=PLANE('',#143);
#16=SPHERICAL_SURFACE('',#142,0.749998500000407);
#17=(
BOUNDED_SURFACE()
B_SPLINE_SURFACE(2,2,((#207,#208,#209,#210,#211,#212,#213,#214,#215),(#216,
#217,#218,#219,#220,#221,#222,#223,#224),(#225,#226,#227,#228,#229,#230,
#231,#232,#233)),.UNSPECIFIED.,.F.,.T.,.F.)
B_SPLINE_SURFACE_WITH_KNOTS((3,3),(3,2,2,2,3),(0.0079738212182812,0.344625123680459),
(-3.14159265358979,-1.5707963267949,0.,1.5707963267949,3.14159265358979),
 .UNSPECIFIED.)
GEOMETRIC_REPRESENTATION_ITEM()
RATIONAL_B_SPLINE_SURFACE(((1.,0.707106781186548,1.,0.707106781186548,1.,
0.707106781186548,1.,0.707106781186548,1.),(0.985866655519668,0.697112997463659,
0.985866655519668,0.697112997463659,0.985866655519668,0.697112997463659,
0.985866655519668,0.697112997463659,0.985866655519668),(1.,0.707106781186548,
1.,0.707106781186548,1.,0.707106781186548,1.,0.707106781186548,1.)))
REPRESENTATION_ITEM('')
SURFACE()
);
#18=TOROIDAL_SURFACE('',#137,1.13124402392259,0.749998499997725);
#19=CONICAL_SURFACE('',#132,1.89999620000435,0.261799387798908);
#20=CONICAL_SURFACE('',#145,1.84999630000221,0.785398163405028);
#21=FACE_OUTER_BOUND('',#29,.T.);
#22=FACE_OUTER_BOUND('',#30,.T.);
#23=FACE_OUTER_BOUND('',#31,.T.);
#24=FACE_OUTER_BOUND('',#32,.T.);
#25=FACE_OUTER_BOUND('',#33,.T.);
#26=FACE_OUTER_BOUND('',#34,.T.);
#27=FACE_OUTER_BOUND('',#35,.T.);
#28=FACE_OUTER_BOUND('',#36,.T.);
#29=EDGE_LOOP('',(#77,#78,#79,#80));
#30=EDGE_LOOP('',(#81,#82,#83,#84));
#31=EDGE_LOOP('',(#85,#86,#87,#88,#89));
#32=EDGE_LOOP('',(#90,#91,#92,#93,#94));
#33=EDGE_LOOP('',(#95,#96,#97,#98));
#34=EDGE_LOOP('',(#99));
#35=EDGE_LOOP('',(#100));
#36=EDGE_LOOP('',(#101,#102,#103,#104));
#37=LINE('',#191,#41);
#38=LINE('',#196,#42);
#39=LINE('',#201,#43);
#40=LINE('',#242,#44);
#41=VECTOR('',#152,1.9999960000041);
#42=VECTOR('',#159,1.89999620000435);
#43=VECTOR('',#164,1.7999964000046);
#44=VECTOR('',#185,1.84999630000221);
#45=CIRCLE('',#130,1.9999960000041);
#46=CIRCLE('',#131,1.99999600000411);
#47=CIRCLE('',#133,1.7999964000046);
#48=CIRCLE('',#135,1.7999964000046);
#49=CIRCLE('',#136,1.7999964000046);
#50=CIRCLE('',#138,1.8812186809123);
#51=CIRCLE('',#139,0.749998499997725);
#52=CIRCLE('',#140,0.705900214500551);
#53=CIRCLE('',#141,19.9999600000022);
#54=CIRCLE('',#144,1.69999660000031);
#55=VERTEX_POINT('',#188);
#56=VERTEX_POINT('',#190);
#57=VERTEX_POINT('',#194);
#58=VERTEX_POINT('',#198);
#59=VERTEX_POINT('',#199);
#60=VERTEX_POINT('',#204);
#61=VERTEX_POINT('',#234);
#62=VERTEX_POINT('',#239);
#63=EDGE_CURVE('',#55,#55,#45,.T.);
#64=EDGE_CURVE('',#55,#56,#37,.T.);
#65=EDGE_CURVE('',#56,#56,#46,.T.);
#66=EDGE_CURVE('',#57,#57,#47,.T.);
#67=EDGE_CURVE('',#57,#55,#38,.T.);
#68=EDGE_CURVE('',#58,#59,#48,.T.);
#69=EDGE_CURVE('',#58,#57,#39,.T.);
#70=EDGE_CURVE('',#59,#58,#49,.T.);
#71=EDGE_CURVE('',#60,#60,#50,.T.);
#72=EDGE_CURVE('',#60,#59,#51,.T.);
#73=EDGE_CURVE('',#61,#61,#52,.T.);
#74=EDGE_CURVE('',#61,#60,#53,.T.);
#75=EDGE_CURVE('',#62,#62,#54,.T.);
#76=EDGE_CURVE('',#56,#62,#40,.T.);
#77=ORIENTED_EDGE('',*,*,#63,.F.);
#78=ORIENTED_EDGE('',*,*,#64,.T.);
#79=ORIENTED_EDGE('',*,*,#65,.T.);
#80=ORIENTED_EDGE('',*,*,#64,.F.);
#81=ORIENTED_EDGE('',*,*,#66,.F.);
#82=ORIENTED_EDGE('',*,*,#67,.T.);
#83=ORIENTED_EDGE('',*,*,#63,.T.);
#84=ORIENTED_EDGE('',*,*,#67,.F.);
#85=ORIENTED_EDGE('',*,*,#68,.F.);
#86=ORIENTED_EDGE('',*,*,#69,.T.);
#87=ORIENTED_EDGE('',*,*,#66,.T.);
#88=ORIENTED_EDGE('',*,*,#69,.F.);
#89=ORIENTED_EDGE('',*,*,#70,.F.);
#90=ORIENTED_EDGE('',*,*,#71,.F.);
#91=ORIENTED_EDGE('',*,*,#72,.T.);
#92=ORIENTED_EDGE('',*,*,#70,.T.);
#93=ORIENTED_EDGE('',*,*,#68,.T.);
#94=ORIENTED_EDGE('',*,*,#72,.F.);
#95=ORIENTED_EDGE('',*,*,#73,.F.);
#96=ORIENTED_EDGE('',*,*,#74,.T.);
#97=ORIENTED_EDGE('',*,*,#71,.T.);
#98=ORIENTED_EDGE('',*,*,#74,.F.);
#99=ORIENTED_EDGE('',*,*,#73,.T.);
#100=ORIENTED_EDGE('',*,*,#75,.F.);
#101=ORIENTED_EDGE('',*,*,#65,.F.);
#102=ORIENTED_EDGE('',*,*,#76,.T.);
#103=ORIENTED_EDGE('',*,*,#75,.T.);
#104=ORIENTED_EDGE('',*,*,#76,.F.);
#105=CYLINDRICAL_SURFACE('',#129,1.9999960000041);
#106=CYLINDRICAL_SURFACE('',#134,1.7999964000046);
#107=ADVANCED_FACE('',(#21),#105,.T.);
#108=ADVANCED_FACE('',(#22),#19,.T.);
#109=ADVANCED_FACE('',(#23),#106,.T.);
#110=ADVANCED_FACE('',(#24),#18,.T.);
#111=ADVANCED_FACE('',(#25),#17,.F.);
#112=ADVANCED_FACE('',(#26),#16,.T.);
#113=ADVANCED_FACE('',(#27),#15,.T.);
#114=ADVANCED_FACE('',(#28),#20,.T.);
#115=CLOSED_SHELL('',(#107,#108,#109,#110,#111,#112,#113,#114));
#116=DERIVED_UNIT_ELEMENT(#118,1.);
#117=DERIVED_UNIT_ELEMENT(#248,-3.);
#118=(
MASS_UNIT()
NAMED_UNIT(*)
SI_UNIT(.KILO.,.GRAM.)
);
#119=DERIVED_UNIT((#116,#117));
#120=MEASURE_REPRESENTATION_ITEM('density measure',
POSITIVE_RATIO_MEASURE(7850.),#119);
#121=PROPERTY_DEFINITION_REPRESENTATION(#126,#123);
#122=PROPERTY_DEFINITION_REPRESENTATION(#127,#124);
#123=REPRESENTATION('material name',(#125),#245);
#124=REPRESENTATION('density',(#120),#245);
#125=DESCRIPTIVE_REPRESENTATION_ITEM('Steel','Steel');
#126=PROPERTY_DEFINITION('material property','material name',#255);
#127=PROPERTY_DEFINITION('material property','density of part',#255);
#128=AXIS2_PLACEMENT_3D('placement',#186,#146,#147);
#129=AXIS2_PLACEMENT_3D('',#187,#148,#149);
#130=AXIS2_PLACEMENT_3D('',#189,#150,#151);
#131=AXIS2_PLACEMENT_3D('',#192,#153,#154);
#132=AXIS2_PLACEMENT_3D('',#193,#155,#156);
#133=AXIS2_PLACEMENT_3D('',#195,#157,#158);
#134=AXIS2_PLACEMENT_3D('',#197,#160,#161);
#135=AXIS2_PLACEMENT_3D('',#200,#162,#163);
#136=AXIS2_PLACEMENT_3D('',#202,#165,#166);
#137=AXIS2_PLACEMENT_3D('',#203,#167,#168);
#138=AXIS2_PLACEMENT_3D('',#205,#169,#170);
#139=AXIS2_PLACEMENT_3D('',#206,#171,#172);
#140=AXIS2_PLACEMENT_3D('',#235,#173,#174);
#141=AXIS2_PLACEMENT_3D('',#236,#175,#176);
#142=AXIS2_PLACEMENT_3D('',#237,#177,#178);
#143=AXIS2_PLACEMENT_3D('',#238,#179,#180);
#144=AXIS2_PLACEMENT_3D('',#240,#181,#182);
#145=AXIS2_PLACEMENT_3D('',#241,#183,#184);
#146=DIRECTION('axis',(0.,0.,1.));
#147=DIRECTION('refdir',(1.,0.,0.));
#148=DIRECTION('center_axis',(0.,-1.,0.));
#149=DIRECTION('ref_axis',(1.,0.,0.));
#150=DIRECTION('center_axis',(0.,-1.,0.));
#151=DIRECTION('ref_axis',(1.,0.,0.));
#152=DIRECTION('',(0.,1.,0.));
#153=DIRECTION('center_axis',(0.,-1.,0.));
#154=DIRECTION('ref_axis',(1.,0.,0.));
#155=DIRECTION('center_axis',(0.,1.,0.));
#156=DIRECTION('ref_axis',(1.,0.,0.));
#157=DIRECTION('center_axis',(0.,-1.,0.));
#158=DIRECTION('ref_axis',(1.,0.,0.));
#159=DIRECTION('',(-0.258819045102287,0.965925826289131,-3.16961915142891E-17));
#160=DIRECTION('center_axis',(0.,-1.,0.));
#161=DIRECTION('ref_axis',(1.,0.,0.));
#162=DIRECTION('center_axis',(0.,-1.,0.));
#163=DIRECTION('ref_axis',(1.,0.,0.));
#164=DIRECTION('',(0.,1.,0.));
#165=DIRECTION('center_axis',(0.,-1.,0.));
#166=DIRECTION('ref_axis',(1.,0.,0.));
#167=DIRECTION('center_axis',(0.,-1.,0.));
#168=DIRECTION('ref_axis',(0.,0.,-1.));
#169=DIRECTION('center_axis',(0.,-1.,0.));
#170=DIRECTION('ref_axis',(1.,0.,0.));
#171=DIRECTION('center_axis',(-1.,0.,-1.22464679914735E-16));
#172=DIRECTION('ref_axis',(-1.22464679914735E-16,0.,1.));
#173=DIRECTION('center_axis',(0.,-1.,0.));
#174=DIRECTION('ref_axis',(1.,0.,0.));
#175=DIRECTION('center_axis',(-1.,0.,-1.22464679914735E-16));
#176=DIRECTION('ref_axis',(-1.22464679914735E-16,0.,1.));
#177=DIRECTION('center_axis',(6.12323399573677E-17,0.,1.));
#178=DIRECTION('ref_axis',(1.,0.,0.));
#179=DIRECTION('center_axis',(0.,1.,0.));
#180=DIRECTION('ref_axis',(0.,0.,1.));
#181=DIRECTION('center_axis',(0.,-1.,0.));
#182=DIRECTION('ref_axis',(1.,0.,0.));
#183=DIRECTION('center_axis',(0.,-1.,0.));
#184=DIRECTION('ref_axis',(1.,0.,0.));
#185=DIRECTION('',(0.707106781191907,0.707106781181188,8.65956056242057E-17));
#186=CARTESIAN_POINT('',(0.,0.,0.));
#187=CARTESIAN_POINT('Origin',(4.82747970104536E-15,32.723139634345,0.));
#188=CARTESIAN_POINT('',(-1.9999960000041,15.7463786686912,-2.44928869971253E-16));
#189=CARTESIAN_POINT('Origin',(4.82747970104536E-15,15.7463786686912,0.));
#190=CARTESIAN_POINT('',(-1.9999960000041,49.6999005999987,-2.44928869971253E-16));
#191=CARTESIAN_POINT('',(-1.9999960000041,32.723139634345,-2.44928869971253E-16));
#192=CARTESIAN_POINT('Origin',(4.82747970104536E-15,49.6999005999987,0.));
#193=CARTESIAN_POINT('Origin',(4.82747970104536E-15,15.3731743343451,0.));
#194=CARTESIAN_POINT('',(-1.79999640000459,14.9999699999989,-2.20435982974239E-16));
#195=CARTESIAN_POINT('Origin',(4.82747970104536E-15,14.9999699999989,0.));
#196=CARTESIAN_POINT('',(-1.89999620000434,15.3731743343451,-2.32682426472746E-16));
#197=CARTESIAN_POINT('Origin',(4.82747970104536E-15,11.2197336138138,0.));
#198=CARTESIAN_POINT('',(-1.79999640000459,7.43949722762864,-2.20435982974239E-16));
#199=CARTESIAN_POINT('',(4.60704371807113E-15,7.43949722762864,1.7999964000046));
#200=CARTESIAN_POINT('Origin',(4.82747970104536E-15,7.43949722762864,0.));
#201=CARTESIAN_POINT('',(-1.79999640000459,11.2197336138138,-2.20435982974239E-16));
#202=CARTESIAN_POINT('Origin',(4.82747970104536E-15,7.43949722762864,0.));
#203=CARTESIAN_POINT('Origin',(4.82747970104536E-15,7.09998580000047,0.));
#204=CARTESIAN_POINT('',(4.59709685743782E-15,7.09400550942061,1.8812186809123));
#205=CARTESIAN_POINT('Origin',(4.82747970104536E-15,7.09400550942061,0.));
#206=CARTESIAN_POINT('Origin',(4.68894226375023E-15,7.09998580000047,1.13124402392259));
#207=CARTESIAN_POINT('Ctrl Pts',(4.82747970104536E-15,7.09400550942061,
1.8812186809123));
#208=CARTESIAN_POINT('Ctrl Pts',(-1.88121868091229,7.09400550942061,1.8812186809123));
#209=CARTESIAN_POINT('Ctrl Pts',(-1.88121868091229,7.09400550942061,0.));
#210=CARTESIAN_POINT('Ctrl Pts',(-1.88121868091229,7.09400550942061,-1.8812186809123));
#211=CARTESIAN_POINT('Ctrl Pts',(4.82747970104536E-15,7.09400550942061,
-1.8812186809123));
#212=CARTESIAN_POINT('Ctrl Pts',(1.8812186809123,7.09400550942061,-1.8812186809123));
#213=CARTESIAN_POINT('Ctrl Pts',(1.8812186809123,7.09400550942061,0.));
#214=CARTESIAN_POINT('Ctrl Pts',(1.8812186809123,7.09400550942061,1.8812186809123));
#215=CARTESIAN_POINT('Ctrl Pts',(4.82747970104536E-15,7.09400550942061,
1.8812186809123));
#216=CARTESIAN_POINT('Ctrl Pts',(4.82747970104536E-15,3.69544774107441,
1.85411861450784));
#217=CARTESIAN_POINT('Ctrl Pts',(-1.85411861450784,3.69544774107441,1.85411861450784));
#218=CARTESIAN_POINT('Ctrl Pts',(-1.85411861450784,3.69544774107441,0.));
#219=CARTESIAN_POINT('Ctrl Pts',(-1.85411861450784,3.69544774107441,-1.85411861450784));
#220=CARTESIAN_POINT('Ctrl Pts',(4.82747970104536E-15,3.69544774107441,
-1.85411861450784));
#221=CARTESIAN_POINT('Ctrl Pts',(1.85411861450785,3.69544774107441,-1.85411861450784));
#222=CARTESIAN_POINT('Ctrl Pts',(1.85411861450785,3.69544774107441,0.));
#223=CARTESIAN_POINT('Ctrl Pts',(1.85411861450785,3.69544774107441,1.85411861450784));
#224=CARTESIAN_POINT('Ctrl Pts',(4.82747970104536E-15,3.69544774107441,
1.85411861450784));
#225=CARTESIAN_POINT('Ctrl Pts',(4.82747970104536E-15,0.49661610682506,
0.705900214502428));
#226=CARTESIAN_POINT('Ctrl Pts',(-0.705900214502423,0.49661610682506,0.705900214502428));
#227=CARTESIAN_POINT('Ctrl Pts',(-0.705900214502424,0.49661610682506,0.));
#228=CARTESIAN_POINT('Ctrl Pts',(-0.705900214502423,0.49661610682506,-0.705900214502428));
#229=CARTESIAN_POINT('Ctrl Pts',(4.82747970104536E-15,0.49661610682506,
-0.705900214502428));
#230=CARTESIAN_POINT('Ctrl Pts',(0.705900214502433,0.49661610682506,-0.705900214502428));
#231=CARTESIAN_POINT('Ctrl Pts',(0.705900214502433,0.49661610682506,0.));
#232=CARTESIAN_POINT('Ctrl Pts',(0.705900214502433,0.49661610682506,0.705900214502428));
#233=CARTESIAN_POINT('Ctrl Pts',(4.82747970104536E-15,0.49661610682506,
0.705900214502428));
#234=CARTESIAN_POINT('',(4.74103185722481E-15,0.496616106825734,0.705900214500551));
#235=CARTESIAN_POINT('Origin',(4.82747970104536E-15,0.496616106825734,0.));
#236=CARTESIAN_POINT('Origin',(7.04630769243565E-15,7.25347992487515,-18.1181055054822));
#237=CARTESIAN_POINT('Origin',(0.,0.749998500000402,0.));
#238=CARTESIAN_POINT('Origin',(1.69999660000031,49.9998999999979,0.));
#239=CARTESIAN_POINT('',(-1.6999966000003,49.9998999999979,-2.08189539475176E-16));
#240=CARTESIAN_POINT('Origin',(4.82747970104536E-15,49.9998999999979,0.));
#241=CARTESIAN_POINT('Origin',(4.82747970104536E-15,49.8499002999983,0.));
#242=CARTESIAN_POINT('',(-1.8499963000022,49.8499002999983,-2.26559204723215E-16));
#243=UNCERTAINTY_MEASURE_WITH_UNIT(LENGTH_MEASURE(0.01),#247,
'DISTANCE_ACCURACY_VALUE',
'Maximum model space distance between geometric entities at asserted c
onnectivities');
#244=UNCERTAINTY_MEASURE_WITH_UNIT(LENGTH_MEASURE(0.01),#247,
'DISTANCE_ACCURACY_VALUE',
'Maximum model space distance between geometric entities at asserted c
onnectivities');
#245=(
GEOMETRIC_REPRESENTATION_CONTEXT(3)
GLOBAL_UNCERTAINTY_ASSIGNED_CONTEXT((#243))
GLOBAL_UNIT_ASSIGNED_CONTEXT((#247,#249,#250))
REPRESENTATION_CONTEXT('','3D')
);
#246=(
GEOMETRIC_REPRESENTATION_CONTEXT(3)
GLOBAL_UNCERTAINTY_ASSIGNED_CONTEXT((#244))
GLOBAL_UNIT_ASSIGNED_CONTEXT((#247,#249,#250))
REPRESENTATION_CONTEXT('','3D')
);
#247=(
LENGTH_UNIT()
NAMED_UNIT(*)
SI_UNIT(.MILLI.,.METRE.)
);
#248=(
LENGTH_UNIT()
NAMED_UNIT(*)
SI_UNIT($,.METRE.)
);
#249=(
NAMED_UNIT(*)
PLANE_ANGLE_UNIT()
SI_UNIT($,.RADIAN.)
);
#250=(
NAMED_UNIT(*)
SI_UNIT($,.STERADIAN.)
SOLID_ANGLE_UNIT()
);
#251=SHAPE_DEFINITION_REPRESENTATION(#252,#253);
#252=PRODUCT_DEFINITION_SHAPE('',$,#255);
#253=SHAPE_REPRESENTATION('',(#128),#245);
#254=PRODUCT_DEFINITION_CONTEXT('part definition',#259,'design');
#255=PRODUCT_DEFINITION('4CTDB 015 020 071','4CTDB 015 020 071 v1',#256,
#254);
#256=PRODUCT_DEFINITION_FORMATION('',$,#261);
#257=PRODUCT_RELATED_PRODUCT_CATEGORY('4CTDB 015 020 071 v1',
'4CTDB 015 020 071 v1',(#261));
#258=APPLICATION_PROTOCOL_DEFINITION('international standard',
'automotive_design',2009,#259);
#259=APPLICATION_CONTEXT(
'Core Data for Automotive Mechanical Design Process');
#260=PRODUCT_CONTEXT('part definition',#259,'mechanical');
#261=PRODUCT('4CTDB 015 020 071','4CTDB 015 020 071 v1',$,(#260));
#262=PRESENTATION_STYLE_ASSIGNMENT((#263));
#263=SURFACE_STYLE_USAGE(.BOTH.,#264);
#264=SURFACE_SIDE_STYLE('',(#265));
#265=SURFACE_STYLE_FILL_AREA(#266);
#266=FILL_AREA_STYLE('Steel - Satin',(#267));
#267=FILL_AREA_STYLE_COLOUR('Steel - Satin',#268);
#268=COLOUR_RGB('Steel - Satin',0.627450980392157,0.627450980392157,0.627450980392157);
ENDSEC;
END-ISO-10303-21;
